Accueil Chaînes Historique Mes abonnements
#humour#auteur#musique#gaming#stream#podcast#critique#electro#philosophe#musculation
Inscription créateur
tijudo
tijudo

stuck in the sound "brother" guitare + tabs

Publié le 04/09/2017 à 17h28 Signaler cette vidéo
cover de "brother " de stuck in the sound.

tabs :

intro
E||----------------------|--0----------------|
B||----------------------|--0----------------|
G||----------------------|-------------------|
D||----------------------|-------------------|
A||----------------------|-------------------|
E||--3----6----2----3----|-------------------|


clean
----------------------------------|----------------------------------------------------------
----------------------------------|----------------------------------------------------------
--15--15--15--15--13--13--13--13--|--11----11----11----11----8----8------8----10-----10---10-
----------------------------------|----------------------------------------------------------
--13--13--13--13--11--11--11--11--|--9-----9-----9-----9----6-----6------6-----8------8----8-
--------------------------------------------------------------------------------------------

refrain

--8----8----8----8----|
--8----8----8----8----|
--6----6----6----6----|

--8----4----4----4----|--4----5----5----5----|--5----5----5----5----|
--8----4----4----4----|--4----5----5----5----|--5----5----5----5----|
--6----2----2----2----|--2----3----3----3----|--3----3----3----3----|






fin
--------------------|-----------||
--------------------|-----------||
--2--------3--------|-----------||
--------------------|--1--------||
--------------------|-----------||
--------------------|-----------||

Solid.Tube Selection

Les meilleurs vidéos du web

Nouveautés